The Frayed Ends Of Sanity - Metallica - Guitar Chord | Tabs.vn - Tabs & Chords Guitar, Ukulele (2022)

THE FRAYED ENDS OF SANITY

As recorded by Metallica

(From the 1988 Album ...AND JUSTICE FOR ALL)

Transcribed by www.mikesguitarsite.co.uk

Words & Music by James Hetfield, Lars Ulrich & Kirk Hammett

E5 0 2 2 x 0 x

C5 x 3 5 5 x x

B5 x 2 4 4 x x

E5II 0 2 2 x x x

Bb5 x 1 3 3 x x

F#5 2 4 4 x x x

G5 3 5 5 x x x

G#5 4 6 6 x x x

A5 5 7 7 x x x

Bb5VI 6 8 8 x x x

E5VII 0 7 9 9 x x

D5 x 5 7 7 x x

C#5 x 4 6 6 x x

D#5 x 6 8 8 x x

Gtr I, II (E A D G B E) - 'James Hetfield - Rhythm w/dist'

Gtr III, IV (E A D G B E) - 'Kirk Hammett - Lead w/dist'

Intro

Q=116

4/4

Gtrs I, II

E5 C5 E5 B5

|-3-|

Q S S W W W W

| | | | | |

x x / / / /

|-------|----------|----------|----------|------||

1.,2. 3.

E5IBb5E5II Bb5 E5II E5IBb5E5II Bb5 E5II Bb5

2/4

|3| |3| |3| |-3-|

Q Q E E Q E H E E Q E Q Q E E Q E H E E E E E H

| | | | | | | | | | | | | | | | | | | |

/ / / x x / / x x / / / x x / / x x x /

W W W W H

||----------------|--------------|---------------|-----------------||------||

||o---------------|--------------|---------------|----------------o||------||

||----------------|--------------|---------------|-----------------||------||

||----------------|--------------|---------------|-----------------||------||

||o---------------|--------------|---------------|----------------o||------||

||----------------|--------------|---------------|-----------------||------||

Slower Q=96

4/4

Gtrs I, II

PM----| PM PM PM PM| PM--| PM PM PM PM|

S S S S S S S S E. S S S S S S S S S S S S S E. S S S S S

||-------------------------------|-------------------------------|

||o------------------------------|-------------------------------|

||-------------------------------|-------------------------------|

||----------3-------3------------|---------3-------3-------------|

||o---------1-------1----4-----3s|=2-------1-------1----4-----3s=|

||--0-0-0-0---0---0----0-2-0-0-1s|=0-0-0-0---0---0----0-2-0-0-1s=|

PM--| PM--| PM PM| PM--| PM PM

S S S S S S S S E. S S S S S S S S S S S S S E E S S S S

|------------------------------|------------------------------||

|------------------------------|-----------------------------o||

|------------------------------|------------------------------||

|---------3-------3------------|---------3-------3---3-3---3--||

|-2-------1-------1----4-----3s|=2-------1-------1---1-1---1-o||

|-0-0-0-0---0---0----0-2-0-0-1s|=0-0-0-0---0---0--------------||

5/4

PM----| PM PM PM PM| PM--| PM PM

S S S S S S S S E. S S S S S S S S S S S S S E S S S S E S S E

|------------------------------|-----------------------------------|

|------------------------------|-----------------------------------|

|------------------------------|-----------------------------------|

|---------3-------3------------|---------3-------3-x-x-3-3---3-3-3-|

|---------1-------1----4-----3s|=2-------1-------1-x-x-1-1---1-1-1-|

|-0-0-0-0---0---0----0-2-0-0-1s|=0-0-0-0---0---0-------------------|

4/4

PM----| PM PM PM PM--|

S S S S S S S S E. S S S S S

|------------------------------||

|------------------------------||

|------------------------------||

|---------3-------3------------||

|---------1-------1----4-----3-||

|-0-0-0-0---0---0----0-2-0-0-1-||

Verse 1, 2, 3

$

PM| PM| PM| PM| PM| PM| PM| ~

E S S E S S E S S E S S E S S E S S E S S S +S E

||--------------------------|-----------------------------|

||o-------------------------|-----------------------------|

||--------------------------|-----------------------------|

||--2-----2-----------------|-----------------------------|

||o-2-----2-----7-----7-----|-7-----7-----7---------------|

||--0-0-0---0-0-6-0-0-6-0-0-|-5-0-0-5-0-0-4-0-0-2b3r(2)-2-|

PM----| PM PM PM PM|

S S S S S S S S E. S S S S S

|-------------------------------|

|-------------------------------|

|-------------------------------|

|---------3-------3-------------|

|---------1-------1----4-----3s=|

|-0-0-0-0---0---0----0-2-0-0-1s=|

PM--| PM PM PM PM--|

S S S S S S S S E. S S S S S

|------------------------------|

|------------------------------|

|------------------------------|

|---------3-------3------------|

|-2-------1-------1----4-----3-|

|-0-0-0-0---0---0----0-2-0-0-1-|

PM| PM| PM| PM| PM| ~

E S S E S S E S S E S S E S S E S S E S S S +S E

|-------------------------|------------------------------|

|-------------------------|------------------------------|

|-------------------------|------------------------------|

|-2-----2-----------------|------------------------------|

|-2-----2-----7-----7-----|-7-----7-----7----------------|

|-0-0-0---0-0-6-0-0-6-0-0-|-5-0-0-5-0-0-4-0-0-2b3r(2)-2--|

PM----| PM PM PM PM--| PM----| PM PM PM PM--|

S S S S S S S S E. S S S S S Q Q Q Q S S S S S S S S E. S S S S S

|------------------------------|-------------|-------------------------------|

|------------------------------|-------------|-------------------------------|

|------------------------------|-4--3--2-----|-------------------------------|

|---------3-------3------------|-4--3--2--6--|---------3-------3-------------|

|---------1-------1----4-----3-|-2--1--0--6--|---------1-------1----4-----3--|

|-0-0-0-0---0---0----0-2-0-0-1-|----------4--|-0-0-0-0---0---0----0-2-0-0-1--|

PM----| PM PM PM PM| PM--| PM PM PM PM|

Q Q Q Q S S S S S S S S E. S S S S S S S S S S S S S E. S S S S S

|-------------|------------------------------|--------------------------------||

|-------------|------------------------------|--------------------------------||

|-4--3--2-----|------------------------------|--------------------------------||

|-4--3--2--6--|---------3-------3------------|---------3-------3--------------||

|-2--1--0--6--|---------1-------1----4-----3s|=2-------1-------1----4-----3s==||

|----------4--|-0-0-0-0---0---0----0-2-0-0-1s|=0-0-0-0---0---0----0-2-0-0-1s==||

PM PM|

S S E E E S S E E E S S E E S S E E E E

|-----------------------|---------------------|

|-----------------------|---------------------|

|-----------------------|---------------------|

|-----------------------|---------------------|

|-2---5-/5-7-----5-/5-7-|-----5-5-----5-6-7-8-|

|-0-0-3-/3-5-0-0-3-/3-5-|-0-0-3-3-0-0-3-4-5-6-|

PM| PM| PM| PM|

S S E E E S S E E E S S E E S S E E E E

|-----------------------|-----------------------||

|-----------------------|-----------------------||

|-----------------------|-----------------------||

|-----------------------|-----------------------||

|-----5-/5-7-----5-/5-2-|-----/5-5-----5-6-7-8--||

|-0-0-3-/3-5-0-0-3-/3-0-|-0-0-/3-3-0-0-3-4-5-6--||

Chorus

2/4 4/4

Gtrs I, II

E5 F#5 G5G#A5Bb5VE5 B5

H H E e E E H H

| | | | | | | |

/ / / / / / / /

|-----------|---------|-----------|

2/4 4/4

To Coda

G5G#A5Bb5VE5 G5 F#5 G5G#A5Bb5VI

E e E E H H H E e E E

| | | | | | | | | | |

/ / / / / / / / / / /

|---------|-----------|--------------|

2/4

E5 D5 G5G#A5BbC5C#D5D#5 G5G#A5Bb5VI

H H E e e e e e e e E e e E

| | | | | | | | | | | | | |

/ / / / / / / / / / / / / /

|-----------|-----------------|---------|

4/4

Gtrs I, II

PM----| PM PM PM PM| PM--| PM PM PM PM|

S S S S S S S S E. S S S S S S S S S S S S S E. S S S S S

|------------------------------|------------------------------|

|------------------------------|------------------------------|

|------------------------------|------------------------------|

|---------3-------3------------|---------3-------3------------|

|---------1-------1----4-----3s|=2-------1-------1----4-----3s|

|-0-0-0-0---0---0----0-2-0-0-1s|=0-0-0-0---0---0----0-2-0-0-1s|

PM--| PM PM PM PM|

S S S S S S S S E. S S S S S

|--------------------------------|

|--------------------------------|

|--------------------------------|

|---------3-------3--------------|

|-2-------1-------1----4-----3s==|

|-0-0-0-0---0---0----0-2-0-0-1s==|

1. 2. D

5/4 4/4

G

W W

G

PM--| PM PM PM--| PM PM PM PM--|

S S S S S S S S E S S S S E S S S S S S S S S S S S E. S S S S S

|--------------------------------------||------------------------------|

|-------------------------------------o||------------------------------|

|--------------------------------------||------------------------------|

|---------3-------3-x-x-3-3---3-3---3--||---------3-------3------------|

|-2-------1-------1-x-x-1-1---1-1---1-o||-2-------1-------1----4-------|

|-0-0-0-0---0---0----------------------||-0-0-0-0---0---0----0-2-0-0-0-|

ouble Time Q=192

B5 E

tr I

H. Q H. E E

(Video) I Just Had To Review the METALLICA for UKULELE TAB Book!

| | | |

/ / o o

tr II

PM--| PM----|

Q E E E E E E E S S E E E E E e 4x

||------------------|-----------------------||

||o-----------------|----------------------o||

||------------------|-----------------------||

||------2h4p2-------|-----------------------||

||o-----------5-4-2-|-2h4p2---------2-5----o||

||------------------|-------5-3-2-5---------||

C#5

H. Q H. Q

| | |

/ / /

PM--| PM----|

Q E E E E E E E S S E E E E E e

||------------------|--------------------||

||o-----------------|-------------------o||

||------------------|--------------------||

||------4h6p4-------|--------------------||

||o-4---------7-6-4-|-4h6p4---------4-7-o||

||------------------|-------7-5-4-7------||

B5 E

H. Q H. E E

| | | |

/ / o o

PM--| PM----|

Q E E E E E E E S S E E E E E e

|-||------------------|--------------------||

|-||o-----------------|-------------------o||

|-||------------------|--------------------||

|-||------2h4p2-------|--------------------||

|-||o-----------5-4-2-|-2h4p2---------2-5-o||

|-||------------------|-------5-3-2-5------||

Interlude

B5 B5 E

2/4 4/4

Gtr I

q q H. Q H. E E

| | | | | |

/ / / / o o

Gtrs II, III

---------------------PM--| PM----|

q q Q E E E E E E E S S E E E E E E

|-------||-----------------|-------------------|

|-------||-----------------|-------------------|

|-------||-----2-4-2-------|-------------------|

|-------||-----2h4p2-4-2-0-|-0-2-0---------0-4-|

|-2--2--||-----------5-4-2-|-2h4p2-4-2-0-4-2h5-|

|-------||-----------------|-------5-3-2-5-----|

Q E E E E E E E S S E E E E E E

B5 E

H. Q H. E E

| | | |

/ / o o

------------PM--| PM----|

Q E E E E E E E S S E E E E E E

|-----------------|-------------------|

|-----------------|-------------------|

|-----2-4-2-------|-------------------|

|-0---2h4p2-4-2-0-|-0-2-0---------0-4-|

|-2---------5-4-2-|-2h4p2-4-2-0-4-2h5-|

|-----------------|-------5-3-2-5-----|

Q E E E E E E E S S E E E E E E

C#5 E C#5 E

H. Q H. E E H. Q H. E E

| | | | | | | |

/ / o o / / o o

------------PM------------PM----------------------PM------------PM----|

Q E E E E E E E S S E E E E E E Q E E E E E E E S S E E E E E E

|-----------------|-------------------|-----------------|---------------------|

|-----------------|-------------------|-----------------|---------------------|

|-----4-6-4-------|-------------------|-----4-6-4-------|---------------------|

|-----4h6p4-6-4-2-|-2-4-2---------2-6-|-2---4h6p4-6-4-2-|-2-4-2---------2-6---|

|-----------7-6-4-|-4h6p4-6-4-2-6-4h7-|-4---------7-6-4-|-4h6p4-6-4-2-6-4h7---|

|-----------------|-------7-5-4-7-----|-----------------|-------7-5-4-7-------|

Q E E E E E E E S S E E E E E E Q E E E E E E E S S E E E E E E

D5 D#5

H. Q H. E E H. Q H. E E

| | | | | | | |

/ / o o / / x x

------------PM----------------PM----------------PM----------------PM--|

Q E E E E E E Q E E E E E E Q E E E E E E Q E E E E E E

|-----------------|-----------------|-----------------|-----------------||

|-----------------|-----------------|-----------------|-----------------||

|-----5-7-5-------|-----5-7-5-------|-----6-8-6-------|-----6-8-6-------||

|-7---5h7p5-7-5-3-|-7---5h7p5-7-5-3-|-8---6h8p6-8-6-4-|-8---6h8p6-8-6-4-||

|-5---------8-7-5-|-5---------8-7-5-|-6---------9-8-6-|-6---------9-8-6-||

|-----------------|-----------------|-----------------|-----------------||

Q E E E E E E Q E E E E E E Q E E E E E E Q E E E E E E

E5

3/4 2/4

Gtr I

H. H. H

| | |

/ / /

Gtrs II, III, IV

Q E E E E Q E E E E Q E E

|-------------|-------------|--------|

|-8---7h8p7---|-8---7h8p7---|-8p=7---|

|-9---7-9-7---|-9---7-9-7---|-9--7---|

|-9---7h9p7---|-9---7h9p7---|-9p=7---|

|-------------|-------------|--------|

|-------------|-------------|--------|

3/4 2/4

+H Q W W

|

/

PM-----| PM--------|

E E E E E E E E E E E E E E E E

|---------------|--------------|----------|

|--7h8p7--------|--------------|----------|

|--7-9-7--9-7-5-|-4h5p4--------|------4-7-|

|--7h9p7--9-7-5-|-5-7-5--7-5-4-|-4--7-5-7-|

|--------10-9-7-|-7h9p7--9-7-5-|-5--9-7-9-|

|---------------|-------10-8-7-|-7-10-----|

4/4 2/4 4/4

Gtr I

PM----| PM--| PM--| PM| PM|

E E Q H W E S S E S S E S S E S S E S S E S S E S S E S S

|--------------|------||-------------------------|--------------------------|

|--------------|------||-------------------------|--------------------------|

|--9-----------|------||-------------------------|--------------------------|

|--9-----------|------||-------------------------|--------------------------|

|-10-----------|------||---------7p5h7-------7p5h|=7-------7p5h7------------|

|--------------|------||-0-0-0-0-------0-0-0-----|---0-0-0-------0-0-7-0-0--|

PM--| PM--| PM--| PM| PM

E S S E S S E S S E S S E S S E S S E S S E E

|-------------------------|-----------------------|

|-------------------------|-----------------------|

|-------------------------|-----------------------|

|-------------------------|-----------------------|

|---------7p5h7-------7p5h|=7-------7p5h7-----6---|

|-6-0-0-0-------0-0-0-----|---0-0-0-------7-7---6-|

PM--| PM--| PM--| PM--|

S S S S E S S E S S E S S E S S E S S E S S E S S

|---------------------------|-------------------------|

|---------------------------|-------------------------|

|---------------------------|-------------------------|

|---------------------------|-------------------------|

|-5p0-------7p5h7-------7p5h|=7-------7p5h7-----------|

|-----0-0-0-------0-0-0-----|---0-0-0-------0-0-7-0-0-|

|-Riff A

PM--| PM--| PM--|

E S S E S S E S S E S S E S S E S S E S S E S S

|-------------------------|---------------------------|

|-------------------------|---------------------------|

|-------------------------|---------------------------|

|-------------------------|---------------------------|

|---------7p5h7-------7p5h|=7-------7p5h7-----6-------|

|-6-0-0-0-------0-0-0-----|---0-0-0-------7-7---6-6---|

end Riff A-|

w/Riff A

Gtr II

Q E S S E E E S S E E E S S E E Q

|---------------------------|-------------------------|

|---------------------------|-------------------------|

|---------------------------|-------------------------|

|-----------5p4h5-------5p4h|=5-------5p4h5-----------|

|---------------------------|-------------------------|

|---------------------------|-------------------------|

Q E S S E E E S S E E E S S E E Q

|-------------------------|---------------------------|

|-------------------------|---------------------------|

|-------------------------|---------------------------|

|---------5p4h5-------5p4h|=5-------5p4h5-------------|

|-------------------------|---------------------------|

|-------------------------|---------------------------|

w/Riff A 1st 2 bars

Q E S S E E E S S E E E S S E E Q

|---------------------------|-------------------------|

|---------------------------|-------------------------|

|---------------------------|-------------------------|

|-----------9p7h9-------9p7h|=9-------9p7h9-----------|

|---------------------------|-------------------------|

|---------------------------|-------------------------|

2/4

PM--| PM--| PM--|

E S S E S S E S S E S S E S S E S S

|-------------------------|----------------|

|-------------------------|----------------|

|-------------------------|----------------|

|-------------------------|----------------|

|---------7p5h7-------7p5h|=7-------7p5----|

|-6-0-0-0-------0-0-0-----|---0-0-0--------|

|

| Q E S S E E E S S E E E S S

|-------------------------|----------------|

|-------------------------|----------------|

|---------9p7h9-------9p7h|=9-------9p7----|

|-------------------------|----------------|

|-------------------------|----------------|

|-------------------------|----------------|

Guitar Solo

4/4

Gtr III

/

T T T T T

H.. +E S S E S S S S +S S E S S S S

|------------------------||-14p10p7---14p10p7-14-(14)p10p7---14p10p7-14s|

|-<5>--------------(<5>)-||---------------------------------------------|

|-<7>--------------(<7>)-||---------------------------------------------|

|------------------------||---------------------------------------------|

(Video) The Unforgiven - Metallica - Level 3 Basic Cowboy Chords - Yousician

|------------------------||---------------------------------------------|

|------------------------||---------------------------------------------|

|

| Gtr I

| PM----------| PM------------------------------------------

| E E E E E E Q E S S E S S E S S E S S

|------------------------||---------------------------------------------|

|------------------------||---------------------------------------------|

|--3---3-3-3-3-3-2-------||---------------------------------------------|

|--3---3-3-3-3-3-2-------||---------------------------------------------|

|--1---1-1-1-1-1-0-------||---------------------------------------------|

|------------------------||--0----0-0--0----0--0---0-----0-0--7----0--0-|

T T T

S S S S S S S S S S S S S S S S

|-15p10p7-14s15p10p7-14s15p10p7-14s15p10p7h(10)-|

|-----------------------------------------------|

|-----------------------------------------------|

|-----------------------------------------------|

|-----------------------------------------------|

|-----------------------------------------------|

|

|------------------------------------------|

| E S S E S S E S S E S S

|-----------------------------------------------|

|-----------------------------------------------|

|-----------------------------------------------|

|-----------------------------------------------|

|-----------------------------------------------|

|--6----0--0--0----0--0--0----0--0--7----0---0--|

T T T T T T

S S S S S S S S S S S S S S S S

|-17p10p7-14s15p10p7-14-14s10p7-14s15p10p7-14-|

|---------------------------------------------|

|---------------------------------------------|

|---------------------------------------------|

|---------------------------------------------|

|---------------------------------------------|

|

| PM------------------------------------------

| E S S E S S E S S E S S

|---------------------------------------------|

|---------------------------------------------|

|---------------------------------------------|

|---------------------------------------------|

|---------------------------------------------|

|--6----0--0--0----0--0--0----0--0--7----0--0-|

T T T T T T T T

|-----6------| |-----6------| |-----6------| |-----6------|

S S S S S S S S S S S S S S S S S S S S S S S S

|-14p10p7-15p10p7-14p10p7-15p10p7-14p10p7-15p10p7-14p10p7-15p10p7-|

|-----------------------------------------------------------------|

|-----------------------------------------------------------------|

|-----------------------------------------------------------------|

|-----------------------------------------------------------------|

|-----------------------------------------------------------------|

|

|---------------------------------------------------------|

| E E E E E E E E

|-----------------------------------------------------------------|

|-----------------------------------------------------------------|

|-----------------------------------------------------------------|

|-----------------------------------------------------------------|

|------------------6-------0-------5-------0----------------------|

|--6-------0---------------------------------------6-------0------|

3.5___________/

~~~~~

H E +E +Q H. Q

|-<5>---------------------------|---------------------------------|

|-<5>------------h2-(2)---(2)s==|=17b19-----------------17b19-----|

|-------------------------------|---------------------------------|

|-------------------------------|---------------------------------|

|-------------------------------|---------------------------------|

|-------------------------------|---------------------------------|

|

| PM-----------| PM PM------------| PM|

| E E E S S E S S E E E S S E S S E S S E S S

|-------------------------------|---------------------------------|

|-------------------------------|---------------------------------|

|-------------------------------|---------------------------------|

|--7s====8-----------------9----|--4------------------------------|

|--7s====8-----------------9----|--4---------------------4--------|

|--5s====6-0-0-0--0--0--0--7--0-|--2----2-2-2-2-2-2-2-2-------2-2-|

~~~~~~

H +Q E E

|--------------------------------14---|

|-17b19============(17)r-----17------|

|-------------------------------------|

|-------------------------------------|

|-------------------------------------|

|-------------------------------------|

|

| PM-----------------| PM|

| E S S E S S E S S E S S

|-------------------------------------|

|-------------------------------------|

|-------------------------------------|

|-------------------------------------|

|--3---------------------------4------|

|--------2-2-2-2-2---2----2-2-----2-2-|

|---3---| |---3---| |---3---| |---3---|

E E E E E E E E E E E E

|-17p14--------14------------------------------------------|

|---------17------17p==14---17p14-------------14-----------|

|-----------------------------------17b17.5------16---14---|

|----------------------------------------------------------|

|----------------------------------------------------------|

|----------------------------------------------------------|

|

| PM----------------------------------| PM---|

| E S S E S S E S S E S S

|----------------------------------------------------------|

|----------------------------------------------------------|

|----------------------------------------------------------|

|----------------------------------------------------------|

|--3-------------------------------------------4-----------|

|-------2----2--2----2----2--2----2---------2-------2----2-|

|---3---|

E E E E E +E S S S S S S

|-------------------------------------------------|

|-------------------------------14-17p14----14-17p|

|-16p14--------14-16b18===(16)r----------16-------|

|---------16--------------------------------------|

|-------------------------------------------------|

|-------------------------------------------------|

|

| PM-------------------------| PM|

| E S S E S S E S S E S S

|-------------------------------------------------|

|-------------------------------------------------|

|-------------------------------------------------|

|--2----------------------------------------------|

|--2----------------------------------------------|

|--0----0----0--0--0----0---0----0--0--7-----0--0-|

E S S S S S S S S E E E

|----17p14-------------------------------------|

|=14-------17p14---------14h17p14--------------|

|----------------17b17.5----------16---14------|

|-----------------------------------------16---|

|----------------------------------------------|

|----------------------------------------------|

|

| PM-----------------------------| PM|

| E S S E S S E S S E S S

|----------------------------------------------|

|----------------------------------------------|

|----------------------------------------------|

|----------------------------------------------|

|----------------------------------------------|

|--6--0--0--0-----0-------0--0-----0-0--7--0-0-|

E E E a S S S S S S S S S S

|------------------------------------------------|

|------------14-14h17p14----14-17p14----14-17p14-|

|-14-16b18---------------17----------17----------|

|------------------------------------------------|

|------------------------------------------------|

|------------------------------------------------|

|

| PM--------------------------| PM----

| E S S E S S E S S E S S

|------------------------------------------------|

|------------------------------------------------|

|------------------------------------------------|

|------------------------------------------------|

|------------------------------------------------|

|--6--0----0--0-----0--0--0-----0--0--7-----0--0-|

|---3---| |---3---| |3-|

S S S S S T T S S a E E E a E E E E Q E S S E E +Q

|--------------------------------------------------------|-------------------------------|

|----14-17p14----14h17p14----14h17p14------14h17p14------|-17p14-14-x-x-14-14---(14)----|

|-17----------16----------16------------16------------16-|-------14-x-x-14-14---(14)----|

|--------------------------------------------------------|-------14-x-x-14-14---(14)----|

|--------------------------------------------------------|-------------------------------|

|--------------------------------------------------------|-------------------------------|

|

|---------------------------------------------------|

| E E E E E E E E Q E S S E S S E E

|--------------------------------------------------------|-------------------------------|

|--------------------------------------------------------|-------------------------------|

|--------------------------------------------------------|-------------------------------|

|--------------------------------------------------------|--8---------------------9------|

|--------------6--------0--------5----0------------------|--8---------------------9------|

|--6-----0-------------------------------------6----0----|--6-----0-0-0--0--0-0---7---0--|

Q Q +Q. E Q Q +Q. E

|-------------------------------|-------------------------------|

|-16-----14-----(14)------------|-16-----14-----(14)------------|

|-16-----14-----(14)------------|-16-----14-----(14)------------|

|--------------------------14---|--------------------------14---|

|-------------------------------|-------------------------------|

|-------------------------------|-------------------------------|

|

| PM----------------| PM| PM----------------| PM|

| E S S E S S E S S E S S E S S E S S E S S E S S

|-------------------------------|-------------------------------|

|-------------------------------|-------------------------------|

|-------------------------------|-------------------------------|

|--4----------------------------|-------------------------------|

|--4---------------------4------|--3---------------------4------|

|--2-2-2--2-2-2---2--2-2----2-2-|----2-2--2-2-2---2--2-2----2-2-|

Q S S S S S S S S S S E

|-------------------------------------------|

|-16-----17p14h17p14h17p14h17p14h17p14------|

|-16----------------------------------------|

|--------------------------------------14---|

|-------------------------------------------|

(Video) Welcome Home (Sanitarium) Guitar Lesson - Metallica - Intro & All Chords/Rhythm Guitar Parts

|-------------------------------------------|

|

| PM-----------------------| PM|

| E S S E S S E S S E S S

|-------------------------------------------|

|-------------------------------------------|

|-------------------------------------------|

|-------------------------------------------|

|--3------------------------------4---------|

|----2-2--2-----2--2--2-----2--2--------2-2-|

E E E E E E E E

|------------------------------|

|------------------------------|

|-12s11------11s==9------9s7---|

|---------12--------11---------|

|------------------------------|

|------------------------------|

|

| PM---------------| PM|

| E S S E S S E S S E S S

|------------------------------|

|------------------------------|

|------------------------------|

|--2---------------------------|

|--2---------------------------|

|--0--0-0--0--0-0-0--0-0-7-0-0-|

E E E E E E E E E E E E E E E E

|-------------------------|--------------------------|

|-------------------------|--------------------------|

|---7s==6-----6s4-----4s==|=2-----2p0----------------|

|-9-------7---------6-----|---4---------2-0---2S4----|

|-------------------------|--------------------------|

|-------------------------|--------------------------|

|

| PM------------| PM| PM------------| PM|

| E S S E S S E S S E S S E S S E S S E S S E S S

|-------------------------|--------------------------|

|-------------------------|--------------------------|

|-------------------------|--------------------------|

|-------------------------|--------------------------|

|-------------------------|--------------------------|

|-6-0-0-0-0-0-0-0-0-7-0-0-|-6-0-0-0-0-0-0-0-0-7-0-0--|

~~~ PM----| PM PM

|--3--| |-----3-----| |-----3-----|

E E E E +E +E E E E E +E E E S +S E E E +E E

|----------------------------------|----------------------------------------------------|

|----------------------------------|----------------------------------------------------|

[7] [7]

|--------------------------6---7---|- pb9r(7)p==5---7-7pb9r(7)p5-7--- pb9r(7)p==5---|

|-2-4---5-7---(7)-(7)---7---------|----------------------------------------------------|

|----------------------------------|----------------------------------------------------|

|----------------------------------|----------------------------------------------------|

|

| PM-----------------| PM--| PM-------------------| PM--|

| E S S E S S E S S E S S E S S E S S E S S E S S

|----------------------------------|----------------------------------------------------|

|----------------------------------|----------------------------------------------------|

|----------------------------------|----------------------------------------------------|

|-4--------------------------------|----------------------------------------------------|

|-4----------------------4---------|--3---------------------------------4---------------|

|-2-2-2-2-2-2--2---2---2-----2---2-|------------2---2-2-2-----2--2-2-2------------2---2-|

PM PM

|-----3-----|

E S +S E E E +E E +Q

|-----------------------------------------------|

|-----------------------------------------------|

[7] [7]

|-7- pb9r(7)p5-7--- pb9r(7)p==5---(5)------|

|-----------------------------------------------|

|-----------------------------------------------|

|-----------------------------------------------|

|

| PM-----------------------------| PM|

| E S S E S S E S S E S S

|-----------------------------------------------|

|-----------------------------------------------|

|-----------------------------------------------|

|-----------------------------------------------|

|-3------------------------------------4--------|

|----2------2--2-2-2--2---------2---2------2-2--|

|--3--| |--3--| |--3--| |--3--|

E E E E E E E E E E E E

|-/8-7---5-------------/10-9---7--------------|

|------------9-7---5---------------10-9---7---|

|---------------------------------------------|

|---------------------------------------------|

|---------------------------------------------|

|---------------------------------------------|

|

| PM------------------------| PM--|

| E S S E S S E S S E S S

|---------------------------------------------|

|---------------------------------------------|

|---------------------------------------------|

|--2------------------------------------------|

|--0---0---0-0---0---0---0---0---0--7---0---0-|

|--0------------------------------------------|

|--3---| |--3---| |---3---| |--3---|

E E E E E E E E E E E E

|-/12-10---9---------------/14-12---10---------------|

|--------------12-10---8-----------------14-12---9---|

|----------------------------------------------------|

|----------------------------------------------------|

|----------------------------------------------------|

|----------------------------------------------------|

|

| PM----------------------------| PM

| E S S E S S E S S E S S

|----------------------------------------------------|

|----------------------------------------------------|

|----------------------------------------------------|

|----------------------------------------------------|

|---6----0---0--0----0---0---0----0----0--7----0---0-|

|----------------------------------------------------|

|---3---| |---3---|

E E E E E E S S S S S S E

|-/15-14---12----------------/17-15-14-------------------|

|---------------15-14---12-------------17-15-14----------|

|-----------------------------------------------16------|

|--------------------------------------------------------|

|--------------------------------------------------------|

|--------------------------------------------------------|

|

| PM----------------------------| PM

| E S S E S S E S S E S S

|--------------------------------------------------------|

|--------------------------------------------------------|

|--------------------------------------------------------|

|--------------------------------------------------------|

|---6----0----0--0----0----0---0-----0--0--7-----0--0----|

|--------------------------------------------------------|

|---3---| |---3---| |---3---| |---3----|

E E E E E E E E E E E E

|-/19-17---15------------/21-19---17--------------|

|-------------19-17---15-------------21p19p==(17)-|

|-------------------------------------------------|

|-------------------------------------------------|

|-------------------------------------------------|

|-------------------------------------------------|

|

| PM-------------------------------------|

| E E E E E E E E

|-------------------------------------------------|

|-------------------------------------------------|

|-------------------------------------------------|

|-------------------------------------------------|

|---6----0----------5-----------5-----6p===0------|

|--------------4-----------3----------------------|

S S S S S S S S S S S S S S S S

|-20p17----17-20p17-20p17----17-20p17-20p17----17-|

|-------20----------------20----------------20----|

|-------------------------------------------------|

|-------------------------------------------------|

|-------------------------------------------------|

|-------------------------------------------------|

|

| PM------------------| PM|

| Q E S S E S S E S S

|-------------------------------------------------|

|-------------------------------------------------|

|--8----------------------------------------------|

|--8----------------------------------------------|

|--6-----------0-----0--0--0-----0--0--7-----0--0-|

|-------------------------------------------------|

S S S S S S S S S S S S S S E

|-20p17-20p17----17-20p17-20p17----17-20p17-20---|

|-------------20----------------20---------------|

|------------------------------------------------|

|------------------------------------------------|

|------------------------------------------------|

|------------------------------------------------|

|

| PM------------------------| PM|

| E S S E S S E S S E S S

|------------------------------------------------|

|------------------------------------------------|

|------------------------------------------------|

|------------------------------------------------|

|--6-----0--0--0-----0--0--0-----0--0--7-----0-0-|

|------------------------------------------------|

S +S S S S S S +S +S S E E +S S

|-20b22r(20)p17-17-20-20-20pb22r(20)-(20)p17-20---20pb22r(20)-17--|

|-----------------------------------------------------------------|

|-----------------------------------------------------------------|

|-----------------------------------------------------------------|

|-----------------------------------------------------------------|

|-----------------------------------------------------------------|

|

| PM--------------------------------| PM-|

| E S S E S S E S S E S S

|-----------------------------------------------------------------|

|-----------------------------------------------------------------|

|-----------------------------------------------------------------|

|-----------------------------------------------------------------|

|--6----------0--0--0-----0-------0----0------0-0--7-------0---0--|

|-----------------------------------------------------------------|

|--------3--------|

E E +E S S E +E S S S S S S

|-20-20b22r==(20)-17h20-20b22r(20)---17h==20-17-20p17----|

|-----------------------------------------------------20-|

|--------------------------------------------------------|

|--------------------------------------------------------|

|--------------------------------------------------------|

|--------------------------------------------------------|

(Video) The Unforgiven - Metallica | Ukulele Fingerstyle TAB

|

| PM--------------------------------| PM----

| E S S E S S E S S E S S

|--------------------------------------------------------|

|--------------------------------------------------------|

|--------------------------------------------------------|

|--------------------------------------------------------|

|--6--0----0---0---0--0--0---------0----0-----7-----0--0-|

|--------------------------------------------------------|

S S S S E S S S S S S S S E E E E E E E Q

|-17h20p17h20p17-17h20-17h20p17----17h20p17-|-17----17-17----17-17----17-17------||

|-------------------------------20----------|-20b22----20b22----20b22----20b22---||

|-------------------------------------------|------------------------------------||

|-------------------------------------------|------------------------------------||

|-------------------------------------------|------------------------------------||

|-------------------------------------------|------------------------------------||

|

|----------------------------------------| PM------------|

| E E E E E E E E E E E E E E Q

|-------------------------------------------|------------------------------------||

|-------------------------------------------|------------------------------------||

|-------------------------------------------|--9----11--------------------2------||

|-------------------------------------------|--9----11--------------------2------||

|--6-----0--------5-----------5-----6p====0-|--7-----9--------------------0------||

|--------------4--------3-------------------|-----------2-----2--2-----2---------||

Gtrs I, II

PM| PM PM| PM PM----| PM| PM PM| PM

E E E E E E E E E E E E E E E E 3x E E E E E E E E E E E E q q

||------------------|------------------||-----------------|----------------||

||o-----------------|-----------------o||-----------------|----------------||

||------------------|------------------||-----------------|---------4--4---||

||--5-----7---9-----|-5---7-9----------||-5-----7---9-----|-5---7s9-4--4---||

||o-7-----5---7-----|-7---5-7---------o||-7-----5---7-----|-7---5s7-2--2---||

||----0-0---0---0-0-|---0-----0-0-0-0--||---0-0---0---0-0-|---0------------||

B5 E B5 E

Gtrs I, II

H. Q H. E E H. Q H. E E

| | | | | | | |

/ / o o / / o o

Gtr III

PM--| PM----| PM--| PM----|

Q E E E E E E E S S E E E E E E Q E E E E E E E S S E E E E E E

|-----------------|-------------------|-----------------|---------------------|

|-----------------|-------------------|-----------------|---------------------|

|-----------------|-------------------|-----------------|---------------------|

|-----2h4p2-------|-------------------|-----2h4p2-------|---------------------|

|-----------5-4-2-|-2h4p2---------2h5-|-----------5-4-2-|-2h4p2---------2h5---|

|-----------------|-------5-3-2-5-----|-----------------|-------5-3-2-5-------|

E5VII

Gtrs I, II

H. Q H. Q

| | |

/ / /

Gtrs III, IV G

------------|PM--|

Q E E E E E E E S S E E E E E E

|------------------|----------------------|

|------------------|----------------------|

|-----7-9-7--------|----------------------|

|-----7h9p7--9-7-5-|-5-7-5-----------5--9-|

|-----------10-9-7-|-7h9p7--9-7-5--9-7h10-|

|------------------|-------10-8-7-10------|

Q E E E E E E E S S E E E E E E

W W

trs I, II

PM| PM PM| PM PM----|

E E E E E E E E E E E E E E E E 3x

||------------------|------------------||

||o-----------------|-----------------o||

||------------------|------------------||

||--5-----7---9-----|-5---7-9----------||

||o-7-----5---7-----|-7---5-7---------o||

||----0-0---0---0-0-|---0-----0-0-0-0--||

E5

Gtrs I, II

W H. Q H. E E H. Q

| | | | |

/ / / / /

Gtr III

PM--| PM----| PM--|

E E E E q q Q E E E E E E E S S E E E E E E Q E E E E E E

|---------------|-----------------|-------------------|-----------------|

|---------------|-----------------|-------------------|-----------------|

|---------9--9--|-----2h4p2-------|-------------------|-----2h4p2-------|

|-5---7s9-9--9--|-----------5-4-2-|-2h4p2---------2-5-|-----------5-4-2-|

|-7---5s7-7--7--|-----------------|-------5-3-2-5-----|-----------------|

|---0-----------|-----------------|-------------------|-----------------|

E B5 E B5

2/4

Gtrs I, II

H. E E H. Q H. E E q q

| | | | | | | | |

/ o o / / o o / /

Gtrs III, IV

PM----------------------PM------------PM--------|

E S S E E E E E E Q E E E E E E E S S E E E E E E q q

|-------------------|-----------------|-------------------|--------|

|-------------------|-----------------|-------------------|--------|

|-------------------|-----2-4-2-------|-------------------|-4--4---|

|-2h4p2---------2h5-|-----2h4p2-4-2-0-|-0-2-0---------0-4-|-4--4---|

|-------5-3-2-5-----|-----------5-4-2-|-2h4p2-4-2-0-4-2-5-|-2--2---|

|-------------------|-----------------|-------5-3-2-5-----|--------|

Q E E E E E E E S S E E E E E E

E

4/4

H. Q H. E E W W

| | | |

/ / o o

Gtrs I, II, III, IV

------------PM--|

Q E E E E E E E S S E E E E E E q q e e Q H E E E E

|-----------------|-------------------|--------------|---------------||

|-----------------|-------------------|--------------|---------------||

|-----2-4-2-------|-------------------|-4--4--3-3----|------3-3---3--||

|-----2h4p2-4-2-0-|-0-2-0---------0-4-|-4--4--3-3----|------3-3---3--||

|-----------5-4-2-|-2h4p2-4-2-0-4-----|-2--2--1-1----|------1-1---1--||

|-----------------|-------5-3-2-2-1-0-|--------------|---------------||

Q E E E E E E E S S E E E E E E

Half-Time Q=96

Gtrs I, II

PM----| PM PM PM PM| PM--| PM PM PM PM|

S S S S S S S S E. S S S S S S S S S S S S S E. S S S S S

|------------------------------||--------------------------------||

|------------------------------||o------------------------------o||

|------------------------------||--------------------------------||

|---------3-------3------------||----------3-------3-------------||

|---------1-------1----4-----3s||o=2-------1-------1----4-----3so||

|-0-0-0-0---0---0----0-2-0-0-1s||==0-0-0-0---0---0----0-2-0-0-1s=||

5/4

PM

S S S S S S S S E S S S S E S S S S D.S. al Coda

|--------------------------------------||

|--------------------------------------||

|--------------------------------------||

|---------3-------3-x-x-3-3---3-3---3--||

|-2-------1-------1-x-x-1-1---1-1---1--||

|-0-0-0-0---0---0----------------------||

&

4/4 2/4 4/4

Gtrs I, II

E5VII D5 G5G#A5Bb5VE5VIID5 G5G#A5BbC5C#D5D#5

E. S +Q E. S +Q E e E E H H E E E E E E E E

| | | | | | | | | | | | | | | | | | | |

/ / / / / / / / / / / / / / / / / / / /

|-------------------|---------|-----------|-----------------|

Outro

Double Time Q=192

2/4 4/4

Gtrs I, II

PM| PM----| PM PM PM----| PM--| PM PM

E e E E E E E E E E E E Q. E E E E E E E E E e E E E

|----------||-----------------|----------------|-----------------|

|----------||-----------------|----------------|-----------------|

|----------||-----------------|----------------|-----------------|

|-5-6-7-8-||---------3-------|-3--------------|---------3-------|

|-5-6-7-8-||---------1-------|-1------4-----3s|=2-------1-------|

|-3-4-5-6-||-0-0-0-0---0---0-|------0-2-0-0-1s|=0-0-0-0---0---0-|

PM----| PM--| PM PM PM----| PM--| PM PM

Q. E E E E E E E E E E E E E Q. E E E E E E E E E E E E E

|----------------|-----------------|----------------|-----------------|

|----------------|-----------------|----------------|-----------------|

|----------------|-----------------|----------------|-----------------|

|-3--------------|---------3-------|-3--------------|---------3-------|

|-1------4-----3s|=2-------1-------|-1------4-----3s|=2-------1-------|

|------0-2-0-0-1s|=0-0-0-0---0---0-|------0-2-0-0-1s|=0-0-0-0---0---0-|

PM| PM--| PM----| PM--| PM PM

Q E E E E E E E E E E E E E E Q. E E E E E E E E E E E E E

|----------------|-----------------|----------------|-----------------|

|----------------|-----------------|----------------|-----------------|

|----------------|-----------------|----------------|-----------------|

|-3--x-x-x-3-x-3-|-x-3-----3-------|-3--------------|---------3-------|

|-1--x-x-x-1-x-1-|-x-1-----1-------|-1------------3s|=2-------1-------|

|----x-x-x---x---|-x---0-0---0-2p0-|------0-2-0-0-1s|=0-0-0-0---0---0-|

PM----| PM--| PM PM PM----| PM----------|

Q. E E E E E E E E E E E E E Q. E E E E E E E E E E E E E

|----------------|-----------------|----------------|-----------------|

|----------------|-----------------|----------------|-----------------|

|----------------|-----------------|----------------|-----------------|

|-3--------------|---------3-------|-3--------------|-----------------|

|-1------4-----3s|=2-------1-------|-1------4-----3s|=2-2-2-2-2-2-2-2-|

|------0-2-0-0-1s|=0-0-0-0---0---0-|------0-2-0-0-1s|=0-0-0-0-0-0-0-0-|

PM------| PM| PM PM| PM PM----| PM| PM PM

E E E E E E E E E E E E E E E E E E E E E E E E 3x E E E E E E E E

|-----------------||------------------|------------------||-----------------|

|-----------------||o-----------------|-----------------o||-----------------|

|-----------------||------------------|------------------||-------7---9-----|

|-----------------||--5-----7---9-----|-5---7-9----------||-5-----7---9-----|

|-2-2-2-2-2-0-4-2-||o-7-----5---7-----|-7---5-7---------o||-7-----5---7-----|

|-0-0-0-0-0---2-0-||----0-0---0---0-0-|---0-----0-0-0-0--||---0-0---0---0-0-|

PM PM PM| PM PM|

E E E E E E E E E E E E E E E E E E E E +H Q Q H

|-----------------|-----------------|----------------|------------*|

|-----------------|-----------------|----------------|------------*|

|-----7-9---------|-7---------------|-7---7-9-(9)----|-9----------*|

|-5---7-9---------|-5-----7---9-----|-5---7-9-(9)----|-9----------*|

|-7---5-7---------|-7-----5---7-----|-7---5-7-(7)----|-7----------*|

|---0-------0-0-0-|---0-0---0---0-0-|---0---0-(0)----|-0----------*|

The Frayed Ends Of Sanity - Metallica - Guitar Chord | Tabs.vn - Tabs & Chords Guitar, Ukulele (1)The Frayed Ends Of Sanity - Metallica - Guitar Chord | Tabs.vn - Tabs & Chords Guitar, Ukulele (2)The Frayed Ends Of Sanity - Metallica - Guitar Chord | Tabs.vn - Tabs & Chords Guitar, Ukulele (3)

Finger

x

Videos

1. Unforgiven by Metallica, easy moving chord version
(Guitar Joe)
2. Metallica - The Unforgiven - Fingerstyle/Chord Melody Ukulele Tutorial
(TenThumbs Productions)
3. Master of Puppets Metallica Cover | Guitar Tab | Lesson | Tutorial | Stranger Things
(Mr. Tabs)
4. Californication by Red Hot Chili Peppers - Easy chords and lyrics
(Strum Along)
5. Fade To Black Guitar Lesson Pt.1 - Metallica - Intro & Verse
(GuitarLessons365Song)
6. Metallica - Until It Sleeps Guitar Lesson
(GuitarLessons365Song)

Top Articles

You might also like

Latest Posts

Article information

Author: Rev. Leonie Wyman

Last Updated: 10/08/2022

Views: 5714

Rating: 4.9 / 5 (59 voted)

Reviews: 90% of readers found this page helpful

Author information

Name: Rev. Leonie Wyman

Birthday: 1993-07-01

Address: Suite 763 6272 Lang Bypass, New Xochitlport, VT 72704-3308

Phone: +22014484519944

Job: Banking Officer

Hobby: Sailing, Gaming, Basketball, Calligraphy, Mycology, Astronomy, Juggling

Introduction: My name is Rev. Leonie Wyman, I am a colorful, tasty, splendid, fair, witty, gorgeous, splendid person who loves writing and wants to share my knowledge and understanding with you.